This forum uses cookies
This forum makes use of cookies to store your login information if you are registered, and your last visit if you are not. Cookies are small text documents stored on your computer; the cookies set by this forum can only be used on this website and pose no security risk. Cookies on this forum also track the specific topics you have read and when you last read them. Please confirm whether you accept or reject these cookies being set.

A cookie will be stored in your browser regardless of choice to prevent you being asked this question again. You will be able to change your cookie settings at any time using the link in the footer.


Antwort schreiben 
 
Themabewertung:
  • 0 Bewertungen - 0 im Durchschnitt
  • 1
  • 2
  • 3
  • 4
  • 5
"Bohemain like you"von Dandy Warhols:Anschlagtechnik?
Verfasser Nachricht
Counter Offline
Saitenquäler
*

Beiträge: 38
Registriert seit: May 2002
Beitrag #1
RE: "Bohemain like you"von Dandy Warhols:Anschlagtechnik?
Ich suche dringend eine Anschlagtechnik für das Lied \"bohemain like you\" von den Dandy Warhols( aus der Vodafone Werbung)

Danke schon mal

No risk, no fun!!!
12-05-2002 18:44
Alle Beiträge dieses Benutzers finden Diese Nachricht in einer Antwort zitieren
Manny Offline
Administrator
********

Beiträge: 3,378
Registriert seit: Feb 2002
Beitrag #2
 
Hi Counter,
der Song ist im Archiv - bei mir im Songarchiv unter Sounds habe ich mal in etwa nach den Tabs ein Stückchen gespielt - kannst Dir´s ja mal anhören.

[song]
Bohemian Like You
Dandy Warhols

Intro – Riff: 2 x

H (Hsus4) D (Dsus4) A (Asus4) E (Esus4) (Esus4)E
E|-------------------------------------------------------------|
H|-4--4-5--5-4--7--7-8--8-7--2--2-3--3-2---9--10-9-9-9-10-9-9--|
G|-4--4-4--4-4--7--7-7--7-7--2--2-2--2-2---9--9--9-9-9-9--9-9--|
D|-4--4-4--4-4--7--7-7--7-7--2--2-2--2-2---9--9--9-9-9-9--9-9--|
A|-2--2-2--2-2--5--5-5--5-5--0--0-0--0-0---7--7--7-7-7-7--7-7--|
E|-------------------------------------------------------------|

anschliessend
H
E|-------------------------------------------------------------------|
H|--4-4-4-4-4-x-x-x-4-4-4-4-4-x-x-x-4-4-4-4-4-x-x-x-4-4-4-4-4-4-4-4--|
G|--4-4-4-4-4-x-x-x-4-4-4-4-4-x-x-x-4-4-4-4-4-x-x-x-4-4-4-4-4-4-4-4--|
D|--4-4-4-4-4-x-x-x-4-4-4-4-4-x-x-x-4-4-4-4-4-x-x-x-4-4-4-4-4-4-4-4--|
A|--2-2-2-2-2-x-x-x-2-2-2-2-2-x-x-x-2-2-2-2-2-x-x-x-2-2-2-2-2-2-2-2--|
E|------------0-0-0-----------0-0-0-----------0-0-0------------------|

H
Youve got a great car,
D
Yeah whats wrong with it today?
A
I used to have one too,
E
Maybe Ill come and have a look
H
I really love,
D
your hairdo yeah
A
Im glad you like mine too,
E
See were lookin pretty cool,
H
look at ya

H
E|-------------------------------------------------------------------|
H|--4-4-4-4-4-x-x-x-4-4-4-4-4-x-x-x-4-4-4-4-4-x-x-x-4-4-4-4-4-4-4-4--|
G|--4-4-4-4-4-x-x-x-4-4-4-4-4-x-x-x-4-4-4-4-4-x-x-x-4-4-4-4-4-4-4-4--|
D|--4-4-4-4-4-x-x-x-4-4-4-4-4-x-x-x-4-4-4-4-4-x-x-x-4-4-4-4-4-4-4-4--|
A|--2-2-2-2-2-x-x-x-2-2-2-2-2-x-x-x-2-2-2-2-2-x-x-x-2-2-2-2-2-2-2-2--|
E|------------0-0-0-----------0-0-0-----------0-0-0------------------|

H
So what do you do?
D
Oh yeah I wait tables too,
A
No I havent heard your band,
E
Cause you guys are pretty new,
H D
But if you dig, on vegan food
A
Come over to my work,
E
Ill have em cook you something
H
that you really love,



D
Cause I like you,
A
Yeah I like you,
E H
And Im feelin so bohemian like you
D
Yeah I like you,
A
Yeah I like you,
E
And I feel, wahoa, whoo!


Intro Riff: (2 x) H (Hsus4) D (Dsus4) A (Asus4) E (Esus4) (Esus4) E
oooh oooh oooh oooh oooh oooh
(dann)
H
E|-----------------------------------------------------|
H|--4-4-4-4-4-x-x-x-4-4-4-4-4-x-x-x-4-4-4-4-4-x-x-x-4--|
G|--4-4-4-4-4-x-x-x-4-4-4-4-4-x-x-x-4-4-4-4-4-x-x-x-4--|
D|--4-4-4-4-4-x-x-x-4-4-4-4-4-x-x-x-4-4-4-4-4-x-x-x-4--|
A|--2-2-2-2-2-x-x-x-2-2-2-2-2-x-x-x-2-2-2-2-2-x-x-x-2--|
E|------------0-0-0-----------0-0-0-----------0-0-0----|


H
Whos that guy?
D
Just hangin at your pad,
A
Hes lookin kind of bummed,
E
Yeah you broke up thats too bad
H
I guess its fair,
D
If he always pays the rent,
A
And he doesnt get bent,
E
About sleepin on the couch
H
When Im there!



D
Cause I like you,
A
Yeah I like you,
E H
And Im feelin so bohemian like you
D
Yeah I like you,
A
Yeah I like you,
E
And I feel wahoa, whoo!


Intro Riff: (2 x) H (Hsus4) D (Dsus4) A (Asus4) E (Esus4) (Esus4) E
oooh oooh oooh oooh oooh oooh


H
Im getting wise
D A
And Im feelin so bohemian like you,
E H
Its you that I want so please,
D A
Just a casual, casual easy thing,
E H
Is it, it is for me


D
And I like you
A
Yeah I like you
E H
and I like you I like you I like you
D
I like you I like you I like you
A
I like you
E
And I feel wahoa, whoo!


Intro Riff: 2 x H (Hsus4) D (Dsus4) A (Asus4) E (Esus4) (Esus4) E
oooh oooh oooh oooh oooh oooh

Outro:
H
E|-------------------------------------------------
H|-4-4-4-4-4-x-x-x-4-4-4-4-4-x-x-x-4-4-4-4-4-x-x-x-
G|-4-4-4-4-4-x-x-x-4-4-4-4-4-x-x-x-4-4-4-4-4-x-x-x-
D|-4-4-4-4-4-x-x-x-4-4-4-4-4-x-x-x-4-4-4-4-4-x-x-x-
A|-2-2-2-2-2-x-x-x-2-2-2-2-2-x-x-x-2-2-2-2-2-x-x-x-
E|-----------0-0-0-----------0-0-0-----------0-0-0-

H
E---------------------------|
H-4-4-4-4-4-x-x-x-4------4--|
G-4-4-4-4-4-x-x-x-4------4--|
D-4-4-4-4-4-x-x-x-4------4--|
A-2-2-2-2-2-x-x-x-2------2--|
E-----------0-0-0-----------|

Akkorde:
-------
EADGHE EADGHE
H (x2444x) Hsus4 (x2445x)
D (x5777x) Dsus4 (x5778x)
A (x0222x) Asus4 (x0223x)
E (x7999x) Esus4 (x799-10-x)

----------------------------------------------
http://www.mannyffm.keyspace.de

[/song]

CU Manny:dance2:
--
don´t worry, be happy....

Die meisten Aufgaben lösen sich von selbst, man darf sie nur nicht dabei stören.
12-05-2002 18:50
Webseite des Benutzers besuchen Alle Beiträge dieses Benutzers finden Diese Nachricht in einer Antwort zitieren
Antwort schreiben 


Gehe zu:


Benutzer, die gerade dieses Thema anschauen: 1 Gast/Gäste

Kontakt | Impressum | Gitarrenboard.de | Nach oben | Zum Inhalt | Archiv-Modus | RSS-Synchronisation | Cookie Consent Settings