Antwort schreiben 
 
Themabewertung:
  • 0 Bewertungen - 0 im Durchschnitt
  • 1
  • 2
  • 3
  • 4
  • 5
DTH Nur zu Besuch
Verfasser Nachricht
hipp79 Offline
Schlagerfuzzi

Beiträge: 4
Registriert seit: Sep 2003
Beitrag #1
RE: DTH Nur zu Besuch
Hallöle,

wie spiele/zupfe ich am besten \"Nur zu Besuch\" von den Toten Hosen und welche der beiden Versionen die hier bei den Songtexten aufgeführt ist ist die die sich am besten anhört?

Wäre nett wenn mir da jemand helfen könnte.:x

Gruss

J.8)
28-12-2004 12:23
Alle Beiträge dieses Benutzers finden Diese Nachricht in einer Antwort zitieren
cible Offline
Klampfer
***

Beiträge: 142
Registriert seit: Dec 2004
Beitrag #2
 
ahm hab jetzt net hier nachgeschaut aber auf ner andren tabpage... aber das sind doch immer nur einzelene töne - zupfen ? plek Big Grin

// aber wahrscheinlich sind das dann andere tabs..
03-01-2005 17:20
Webseite des Benutzers besuchen Alle Beiträge dieses Benutzers finden Diese Nachricht in einer Antwort zitieren
cible Offline
Klampfer
***

Beiträge: 142
Registriert seit: Dec 2004
Beitrag #3
 
So, .. ich hoffe mal, der packt das hier alles richtig rein ... :


Code:
Die Toten Hosen - Nur Zu Besuch

[1.Strophe]
E |-------------------------------------|
H |-------------------------------------|
G |-------------------------------------|
D |---------0--2-0------1--1-1--1--0----|
A |--3-0-3----------3----------------1--|
E |-------------------------------------|
Immer wenn ich dich besuch, fühl ich mich grenzenlos

E |-------------------------------------|
H |-------------------------------------|
G |-------------------------------------|
D |--0-1--0-----------0-----1-0--(0)----|
A |----------3--3--3-----3----------3---|
E |-------------------------------------|
Alles andere ist von hieraus so weit weg

E |-------------------------------------|
H |-------------------------------------|
G |-------------------------------------|
D |--------0--1-0-------1-1-1--3--1--0--|
A |--3--3----------3--------------------|
E |-------------------------------------|
Ich mag die Ruhe hier zwischen all den Bäumen

E |-------------------------------------|
H |-------------------------------------|
G |-------------------------------------|
D |--0--0-0-1--0-------------1--0--(0)--|
A |--------------3--3--3-3------------3-|
E |-------------------------------------|
als ob es den Frieden auf Erden wirklich gibt

E |-------------------------------------|
H |-------------------------------------|
G |--0-0-0-3-0--------0-1--0----0-1--0--|
D |-------------1---1--------3----------|
A |-------------------------------------|
E |-------------------------------------|
Es ist ein schöner Weg, der unauffällig zu dir führt

E |-------------------------------------|
H |-------------------------------------|
G |--0-0-3-0---------0-1--0-----0--1--0-|
D |-----------1----1---------3----------|
A |-------------------------------------|
E |-------------------------------------|
Ja, ich habe ihn gern, weil er so hell und freundlich wirkt

[2.Strophe]
E |-------------------------------------|
H |-------------------------------------|
G |-------------------------------------|
D |--------0--1-0------1--1--3--1-0-----|
A |--3--3----------3-----------------1--|
E |-------------------------------------|
Ich habe Blumen mit -  weiss nicht, ob du sie magst

E |-------------------------------------|
H |-------------------------------------|
G |-------------------------------------|
D |--0--1--0-----------0-----1--0-(0)---|
A |----------3-3-3--3-----3-----------3-|
E |-------------------------------------|
Damals hättest du dich wahrscheinlich sehr gefreut

E |-------------------------------------|
H |-------------------------------------|
G |-------------------------------------|
D |-------0--1--0------1--1-3--1--0-----|
A |--3--3----------3-----------------1--|
E |-------------------------------------|
Wenn sie dir nicht gefallen, stör dich nicht weiter dran

E |-------------------------------------|
H |-------------------------------------|
G |-------------------------------------|
D |--0--0-1--0-----------0----1-0--(0)--|
A |-------------3--3---3---3----------3-|
E |-------------------------------------|
Sie werden ganz bestimmt bald wieder weggeräumt

E |-------------------------------------|
H |-------------------------------------|
G |--0--3-0---------0-1--0-----0-1--0---|
D |----------1----1---------3-----------|
A |-------------------------------------|
E |-------------------------------------|
Wie es mir geht, die Frage stellst du jedes Mal

E |-------------------------------------|
H |-------------------------------------|
G |--0--3-0---------0-1--0-----0--1--0--|
D |----------1----1---------3-----------|
A |-------------------------------------|
E |-------------------------------------|
Ich bin okay, will nicht, dass du dir Sorgen machst

[Refrain]
E |---------------------------------1---------------|
H |--1--3--4-4-4--4--4--4-4---4--4----3--3--3-4--3--|
G |-------------------------------------------------|
D |-------------------------------------------------|
A |-------------------------------------------------|
E |-------------------------------------------------|
Und so red ich mit dir wie immer, so als ob es wie früher wär

E |-----------------------------------|
H |--3--4--3-1---1----4--3--1-3-------|
G |------------------------------3----|
D |-----------------------------------|
A |-----------------------------------|
E |-----------------------------------|
so als hätten wir jede Menge Zeit

E |----------------------------------1--------------|
H |--1--1--3--4--4--4-4--4---4-4--4----3--3-4--3----|
G |-------------------------------------------------|
D |-------------------------------------------------|
A |-------------------------------------------------|
E |-------------------------------------------------|
Ich spür dich ganz nah hier bei mir, kann deine Stimme im Wind hören

E |------------------------------------|
H |--3--3-4--3--1--1--1--4--3--1-3-----|
G |---------------------------------3--|
D |------------------------------------|
A |------------------------------------|
E |------------------------------------|
und wenn es regnet, weiss ich, dass du manchmal weinst

E |------------------------------------|
H |------------------------------------|
G |------------------------------------|
D |--0--0--1-0--(0)--------------------|
A |-----------------3----3-1-3-1-------|
E |-------------------------------3----|
bis die Sonne scheint, bis sie wieder schein

[3.Strophe]
E |-------------------------------------|
H |-------------------------------------|
G |-------------------------------------|
D |-------0--1---------1-1--1--0--------|
A |--3--3-------3-----------------------|
E |-------------------------------------|
Ich soll dich grüssen von den andern -

E |-------------------------------------|
H |-------------------------------------|
G |-------------------------------------|
D |--0--0--1--0-------------1--0--(0)---|
A |-------------3--3-----3-----------3--|
E |-------------------------------------|
sie denken alle noch ganz oft an dich

E |-------------------------------------|
H |-------------------------------------|
G |-------------------------------------|
D |----0--1---------1--1--3--1-0--------|
A |--3-------3--------------------1-----|
E |-------------------------------------|
Und dein Garten, es geht im wirklich gut

E |-------------------------------------|
H |-------------------------------------|
G |-------------------------------------|
D |--0--0-1--0-----------1---0--(0)-----|
A |-------------3--3--3-------------3---|
E |-------------------------------------|
obwohl man merkt, dass du ihm doch sehr fehlst

E |-------------------------------------|
H |-------------------------------------|
G |--0-0-0-3-3-0-----1--1--0----0--1--0-|
D |--------------1-----------3----------|
A |-------------------------------------|
E |-------------------------------------|
Und es kommt immer noch Post, ganz fett adressiert an dich

E |-------------------------------------|
H |-------------------------------------|
G |--0-0-0-3-0-------1--1--0----0--1--0-|
D |-------------1------------3----------|
A |-------------------------------------|
E |-------------------------------------|
obwohl doch jeder weiss, dass du weggezogen bist

[Refrain]
E |--------------------------------1----------------|
H |--1--3--4-4-4--4--4--4-4-----4-----3--3-4---3----|
G |-------------------------------------------------|
D |-------------------------------------------------|
A |-------------------------------------------------|
E |-------------------------------------------------|
Und so red ich mit dir wie immer und ich verspreche dir

E |------------------------------------|
H |--3--3-4--3--1--1--1-1--4--3--1-3---|
G |----------------------------------3-|
D |------------------------------------|
A |------------------------------------|
E |------------------------------------|
wir haben irgendwann wieder jede Menge Zeit

E |------------------------------------1------------|
H |--1--1--3--4--4--4-4--4----4-4-4-4----3--3-4--3--|
G |-------------------------------------------------|
D |-------------------------------------------------|
A |-------------------------------------------------|
E |-------------------------------------------------|
Dann werden wir uns wiedersehn - du kannst dich ja kümmern, wenn du willst

E |------------------------------------|
H |--3--4--3-1--1--1-1--4--3-3--1--3---|
G |----------------------------------3-|
D |------------------------------------|
A |------------------------------------|
E |------------------------------------|
dass die Sonne an diesem Tag auch auf mein Grab scheint

E |------------------------------------|
H |------------------------------------|
G |------------------------------------|
D |--0--0--1-0--(0)--------------------|
A |-----------------3----3-1-3-1-------|
E |-------------------------------3----|
dass die Sonne schein, dass sie wieder scheint



//Edit (ich hoffe mal so siehts besser aus:

Die Toten Hosen - Nur Zu Besuch

[1.Strophe]
E |-------------------------------------|
H |-------------------------------------|
G |-------------------------------------|
D |---------0--2-0------1--1-1--1--0----|
A |--3-0-3----------3----------------1--|
E |-------------------------------------|
Immer wenn ich dich besuch, fühl ich mich grenzenlos

E |-------------------------------------|
H |-------------------------------------|
G |-------------------------------------|
D |--0-1--0-----------0-----1-0--(0)----|
A |----------3--3--3-----3----------3---|
E |-------------------------------------|
Alles andere ist von hieraus so weit weg

E |-------------------------------------|
H |-------------------------------------|
G |-------------------------------------|
D |--------0--1-0-------1-1-1--3--1--0--|
A |--3--3----------3--------------------|
E |-------------------------------------|
Ich mag die Ruhe hier zwischen all den Bäumen

E |-------------------------------------|
H |-------------------------------------|
G |-------------------------------------|
D |--0--0-0-1--0-------------1--0--(0)--|
A |--------------3--3--3-3------------3-|
E |-------------------------------------|
als ob es den Frieden auf Erden wirklich gibt

E |-------------------------------------|
H |-------------------------------------|
G |--0-0-0-3-0--------0-1--0----0-1--0--|
D |-------------1---1--------3----------|
A |-------------------------------------|
E |-------------------------------------|
Es ist ein schöner Weg, der unauffällig zu dir führt

E |-------------------------------------|
H |-------------------------------------|
G |--0-0-3-0---------0-1--0-----0--1--0-|
D |-----------1----1---------3----------|
A |-------------------------------------|
E |-------------------------------------|
Ja, ich habe ihn gern, weil er so hell und freundlich wirkt

[2.Strophe]
E |-------------------------------------|
H |-------------------------------------|
G |-------------------------------------|
D |--------0--1-0------1--1--3--1-0-----|
A |--3--3----------3-----------------1--|
E |-------------------------------------|
Ich habe Blumen mit - weiss nicht, ob du sie magst

E |-------------------------------------|
H |-------------------------------------|
G |-------------------------------------|
D |--0--1--0-----------0-----1--0-(0)---|
A |----------3-3-3--3-----3-----------3-|
E |-------------------------------------|
Damals hättest du dich wahrscheinlich sehr gefreut

E |-------------------------------------|
H |-------------------------------------|
G |-------------------------------------|
D |-------0--1--0------1--1-3--1--0-----|
A |--3--3----------3-----------------1--|
E |-------------------------------------|
Wenn sie dir nicht gefallen, stör dich nicht weiter dran

E |-------------------------------------|
H |-------------------------------------|
G |-------------------------------------|
D |--0--0-1--0-----------0----1-0--(0)--|
A |-------------3--3---3---3----------3-|
E |-------------------------------------|
Sie werden ganz bestimmt bald wieder weggeräumt

E |-------------------------------------|
H |-------------------------------------|
G |--0--3-0---------0-1--0-----0-1--0---|
D |----------1----1---------3-----------|
A |-------------------------------------|
E |-------------------------------------|
Wie es mir geht, die Frage stellst du jedes Mal

E |-------------------------------------|
H |-------------------------------------|
G |--0--3-0---------0-1--0-----0--1--0--|
D |----------1----1---------3-----------|
A |-------------------------------------|
E |-------------------------------------|
Ich bin okay, will nicht, dass du dir Sorgen machst

[Refrain]
E |---------------------------------1---------------|
H |--1--3--4-4-4--4--4--4-4---4--4----3--3--3-4--3--|
G |-------------------------------------------------|
D |-------------------------------------------------|
A |-------------------------------------------------|
E |-------------------------------------------------|
Und so red ich mit dir wie immer, so als ob es wie früher wär

E |-----------------------------------|
H |--3--4--3-1---1----4--3--1-3-------|
G |------------------------------3----|
D |-----------------------------------|
A |-----------------------------------|
E |-----------------------------------|
so als hätten wir jede Menge Zeit

E |----------------------------------1--------------|
H |--1--1--3--4--4--4-4--4---4-4--4----3--3-4--3----|
G |-------------------------------------------------|
D |-------------------------------------------------|
A |-------------------------------------------------|
E |-------------------------------------------------|
Ich spür dich ganz nah hier bei mir, kann deine Stimme im Wind hören

E |------------------------------------|
H |--3--3-4--3--1--1--1--4--3--1-3-----|
G |---------------------------------3--|
D |------------------------------------|
A |------------------------------------|
E |------------------------------------|
und wenn es regnet, weiss ich, dass du manchmal weinst

E |------------------------------------|
H |------------------------------------|
G |------------------------------------|
D |--0--0--1-0--(0)--------------------|
A |-----------------3----3-1-3-1-------|
E |-------------------------------3----|
bis die Sonne scheint, bis sie wieder schein

[3.Strophe]
E |-------------------------------------|
H |-------------------------------------|
G |-------------------------------------|
D |-------0--1---------1-1--1--0--------|
A |--3--3-------3-----------------------|
E |-------------------------------------|
Ich soll dich grüssen von den andern -

E |-------------------------------------|
H |-------------------------------------|
G |-------------------------------------|
D |--0--0--1--0-------------1--0--(0)---|
A |-------------3--3-----3-----------3--|
E |-------------------------------------|
sie denken alle noch ganz oft an dich

E |-------------------------------------|
H |-------------------------------------|
G |-------------------------------------|
D |----0--1---------1--1--3--1-0--------|
A |--3-------3--------------------1-----|
E |-------------------------------------|
Und dein Garten, es geht im wirklich gut

E |-------------------------------------|
H |-------------------------------------|
G |-------------------------------------|
D |--0--0-1--0-----------1---0--(0)-----|
A |-------------3--3--3-------------3---|
E |-------------------------------------|
obwohl man merkt, dass du ihm doch sehr fehlst

E |-------------------------------------|
H |-------------------------------------|
G |--0-0-0-3-3-0-----1--1--0----0--1--0-|
D |--------------1-----------3----------|
A |-------------------------------------|
E |-------------------------------------|
Und es kommt immer noch Post, ganz fett adressiert an dich

E |-------------------------------------|
H |-------------------------------------|
G |--0-0-0-3-0-------1--1--0----0--1--0-|
D |-------------1------------3----------|
A |-------------------------------------|
E |-------------------------------------|
obwohl doch jeder weiss, dass du weggezogen bist

[Refrain]
E |--------------------------------1----------------|
H |--1--3--4-4-4--4--4--4-4-----4-----3--3-4---3----|
G |-------------------------------------------------|
D |-------------------------------------------------|
A |-------------------------------------------------|
E |-------------------------------------------------|
Und so red ich mit dir wie immer und ich verspreche dir

E |------------------------------------|
H |--3--3-4--3--1--1--1-1--4--3--1-3---|
G |----------------------------------3-|
D |------------------------------------|
A |------------------------------------|
E |------------------------------------|
wir haben irgendwann wieder jede Menge Zeit

E |------------------------------------1------------|
H |--1--1--3--4--4--4-4--4----4-4-4-4----3--3-4--3--|
G |-------------------------------------------------|
D |-------------------------------------------------|
A |-------------------------------------------------|
E |-------------------------------------------------|
Dann werden wir uns wiedersehn - du kannst dich ja kümmern, wenn du willst

E |------------------------------------|
H |--3--4--3-1--1--1-1--4--3-3--1--3---|
G |----------------------------------3-|
D |------------------------------------|
A |------------------------------------|
E |------------------------------------|
dass die Sonne an diesem Tag auch auf mein Grab scheint

E |------------------------------------|
H |------------------------------------|
G |------------------------------------|
D |--0--0--1-0--(0)--------------------|
A |-----------------3----3-1-3-1-------|
E |-------------------------------3----|
dass die Sonne schein, dass sie wieder scheint
03-01-2005 21:59
Webseite des Benutzers besuchen Alle Beiträge dieses Benutzers finden Diese Nachricht in einer Antwort zitieren
Gitarrensolo Offline
Schlagerfuzzi

Beiträge: 4
Registriert seit: Jan 2005
Beitrag #4
 
http://www.hosentabs.ch.vu/

dort findest alle hosen tabs, die du brauchst (in top quality)

Gruß

Stefan.
06-01-2005 14:49
Alle Beiträge dieses Benutzers finden Diese Nachricht in einer Antwort zitieren
Antwort schreiben 


Gehe zu:


Benutzer, die gerade dieses Thema anschauen: 1 Gast/Gäste

Kontakt | Impressum | Gitarrenboard.de | Nach oben | Zum Inhalt | Archiv-Modus | RSS-Synchronisation